ISO-10303-21;
HEADER;
FILE_DESCRIPTION (( 'STEP AP203' ),
    '1' );
FILE_NAME ('BK7-LPBSC-25.4-915.STEP',
    '2020-12-22T03:15:21',
    ( '' ),
    ( '' ),
    'SwSTEP 2.0',
    'SolidWorks 2020',
    '' );
FILE_SCHEMA (( 'CONFIG_CONTROL_DESIGN' ));
ENDSEC;

DATA;
#1 = CARTESIAN_POINT ( 'NONE',  ( 12.69999999999999574, 12.69999999999999574, 12.69999999999999929 ) ) ;
#2 = AXIS2_PLACEMENT_3D ( 'NONE', #155, #250, #253 ) ;
#3 = CARTESIAN_POINT ( 'NONE',  ( 12.69999999999999929, -12.69999999999999929, 12.69999999999999929 ) ) ;
#4 = FACE_OUTER_BOUND ( 'NONE', #59, .T. ) ;
#5 = LINE ( 'NONE', #108, #116 ) ;
#6 = CARTESIAN_POINT ( 'NONE',  ( 12.69999999999999929, 12.69999999999999929, -12.69999999999999929 ) ) ;
#7 = ADVANCED_FACE ( 'NONE', ( #204 ), #277, .F. ) ;
#8 = ORIENTED_EDGE ( 'NONE', *, *, #119, .F. ) ;
#9 = CARTESIAN_POINT ( 'NONE',  ( 12.69999999999999574, 12.69999999999999574, -12.69999999999999929 ) ) ;
#10 = VECTOR ( 'NONE', #240, 1000.000000000000000 ) ;
#11 = CARTESIAN_POINT ( 'NONE',  ( 0.000000000000000000, 0.000000000000000000, 12.69999999999999929 ) ) ;
#12 = PERSON_AND_ORGANIZATION_ROLE ( 'design_owner' ) ;
#13 = PRODUCT_DEFINITION ( 'UNKNOWN', '', #39, #98 ) ;
#14 = AXIS2_PLACEMENT_3D ( 'NONE', #32, #215, #54 ) ;
#15 = EDGE_CURVE ( 'NONE', #26, #53, #49, .T. ) ;
#16 = COORDINATED_UNIVERSAL_TIME_OFFSET ( 8, 0, .AHEAD. ) ;
#17 = ORIENTED_EDGE ( 'NONE', *, *, #123, .T. ) ;
#18 = CC_DESIGN_APPROVAL ( #266, ( #39 ) ) ;
#19 = COORDINATED_UNIVERSAL_TIME_OFFSET ( 8, 0, .AHEAD. ) ;
#20 = ORIENTED_EDGE ( 'NONE', *, *, #113, .T. ) ;
#21 = CARTESIAN_POINT ( 'NONE',  ( -12.70000000000000284, 12.70000000000000284, 12.69999999999999929 ) ) ;
#22 = AXIS2_PLACEMENT_3D ( 'NONE', #160, #30, #234 ) ;
#23 = LINE ( 'NONE', #97, #319 ) ;
#24 = EDGE_CURVE ( 'NONE', #255, #178, #175, .T. ) ;
#25 = DIRECTION ( 'NONE',  ( -0.7071067811865474617, -0.7071067811865474617, 0.000000000000000000 ) ) ;
#26 = VERTEX_POINT ( 'NONE', #150 ) ;
#27 = LINE ( 'NONE', #79, #131 ) ;
#28 = PLANE ( 'NONE',  #99 ) ;
#29 = ORIENTED_EDGE ( 'NONE', *, *, #119, .T. ) ;
#30 = DIRECTION ( 'NONE',  ( 0.000000000000000000, 1.000000000000000000, 0.000000000000000000 ) ) ;
#31 = ORIENTED_EDGE ( 'NONE', *, *, #87, .T. ) ;
#32 = CARTESIAN_POINT ( 'NONE',  ( 12.69999999999999574, 12.69999999999999574, 12.69999999999999929 ) ) ;
#33 = PERSON ( 'UNSPECIFIED', 'UNSPECIFIED', 'UNSPECIFIED', ('UNSPECIFIED'), ('UNSPECIFIED'), ('UNSPECIFIED') ) ;
#34 = EDGE_LOOP ( 'NONE', ( #238, #182, #75, #17 ) ) ;
#35 = LINE ( 'NONE', #138, #10 ) ;
#36 = ORGANIZATION ( 'UNSPECIFIED', 'UNSPECIFIED', '' ) ;
#37 = DIRECTION ( 'NONE',  ( -0.000000000000000000, 0.000000000000000000, 1.000000000000000000 ) ) ;
#38 = PERSON_AND_ORGANIZATION ( #33, #36 ) ;
#39 = PRODUCT_DEFINITION_FORMATION_WITH_SPECIFIED_SOURCE ( 'ANY', '', #64, .NOT_KNOWN. ) ;
#40 = DATE_AND_TIME ( #120, #279 ) ;
#41 = PERSON_AND_ORGANIZATION ( #33, #36 ) ;
#42 = APPLICATION_PROTOCOL_DEFINITION ( 'international standard', 'config_control_design', 1994, #200 ) ;
#43 = DATE_TIME_ROLE ( 'creation_date' ) ;
#44 = VECTOR ( 'NONE', #102, 1000.000000000000000 ) ;
#45 = ORIENTED_EDGE ( 'NONE', *, *, #15, .F. ) ;
#46 = APPROVAL_STATUS ( 'not_yet_approved' ) ;
#47 = PRODUCT_DEFINITION_SHAPE ( 'NONE', 'NONE',  #13 ) ;
#48 = CARTESIAN_POINT ( 'NONE',  ( 12.69999999999999574, 12.69999999999999574, -12.69999999999999929 ) ) ;
#49 = LINE ( 'NONE', #274, #149 ) ;
#50 = CC_DESIGN_APPROVAL ( #283, ( #13 ) ) ;
#51 = MANIFOLD_SOLID_BREP ( 'Í¹Ì¨-À', #268 ) ;
#52 = ORIENTED_EDGE ( 'NONE', *, *, #141, .F. ) ;
#53 = VERTEX_POINT ( 'NONE', #21 ) ;
#54 = DIRECTION ( 'NONE',  ( 0.000000000000000000, 0.000000000000000000, 1.000000000000000000 ) ) ;
#55 = EDGE_LOOP ( 'NONE', ( #20, #226, #78 ) ) ;
#56 = DIRECTION ( 'NONE',  ( 1.000000000000000000, 0.000000000000000000, 0.000000000000000000 ) ) ;
#57 = DIRECTION ( 'NONE',  ( -2.220446049250312588E-16, 1.000000000000000000, 0.000000000000000000 ) ) ;
#58 = CLOSED_SHELL ( 'NONE', ( #208, #207, #157, #218, #315 ) ) ;
#59 = EDGE_LOOP ( 'NONE', ( #101, #107, #225, #31 ) ) ;
#60 = LINE ( 'NONE', #312, #243 ) ;
#61 = VERTEX_POINT ( 'NONE', #206 ) ;
#62 = APPLICATION_CONTEXT ( 'configuration controlled 3d designs of mechanical parts and assemblies' ) ;
#63 = DIRECTION ( 'NONE',  ( 0.7071067811865475727, -0.7071067811865475727, 0.000000000000000000 ) ) ;
#64 = PRODUCT ( 'BK7-LPBSC-25.4-915', 'BK7-LPBSC-25.4-915', '', ( #292 ) ) ;
#65 = DIRECTION ( 'NONE',  ( -0.000000000000000000, 1.000000000000000000, -0.000000000000000000 ) ) ;
#66 = COORDINATED_UNIVERSAL_TIME_OFFSET ( 8, 0, .AHEAD. ) ;
#67 = ADVANCED_FACE ( 'NONE', ( #76 ), #154, .T. ) ;
#68 = DIRECTION ( 'NONE',  ( 0.000000000000000000, 0.000000000000000000, 1.000000000000000000 ) ) ;
#69 = PERSON_AND_ORGANIZATION_ROLE ( 'classification_officer' ) ;
#70 = DIRECTION ( 'NONE',  ( -2.220446049250312588E-16, 1.000000000000000000, 0.000000000000000000 ) ) ;
#71 = DATE_AND_TIME ( #222, #224 ) ;
#72 = VECTOR ( 'NONE', #231, 1000.000000000000000 ) ;
#73 = LINE ( 'NONE', #177, #89 ) ;
#74 = CC_DESIGN_PERSON_AND_ORGANIZATION_ASSIGNMENT ( #92, #148, ( #39 ) ) ;
#75 = ORIENTED_EDGE ( 'NONE', *, *, #113, .F. ) ;
#76 = FACE_OUTER_BOUND ( 'NONE', #55, .T. ) ;
#77 = CC_DESIGN_APPROVAL ( #291, ( #227 ) ) ;
#78 = ORIENTED_EDGE ( 'NONE', *, *, #304, .T. ) ;
#79 = CARTESIAN_POINT ( 'NONE',  ( -12.69999999999999751, -12.69999999999999929, -12.69999999999999929 ) ) ;
#80 = DIRECTION ( 'NONE',  ( 0.000000000000000000, 0.000000000000000000, 1.000000000000000000 ) ) ;
#81 = EDGE_LOOP ( 'NONE', ( #310, #186, #297, #213 ) ) ;
#82 = ORIENTED_EDGE ( 'NONE', *, *, #304, .F. ) ;
#83 = LINE ( 'NONE', #9, #112 ) ;
#84 = CC_DESIGN_SECURITY_CLASSIFICATION ( #227, ( #39 ) ) ;
#85 = VERTEX_POINT ( 'NONE', #126 ) ;
#86 = PLANE ( 'NONE',  #94 ) ;
#87 = EDGE_CURVE ( 'NONE', #85, #104, #23, .T. ) ;
#88 = LINE ( 'NONE', #192, #125 ) ;
#89 = VECTOR ( 'NONE', #276, 1000.000000000000000 ) ;
#90 = AXIS2_PLACEMENT_3D ( 'NONE', #139, #219, #223 ) ;
#91 = APPROVAL_DATE_TIME ( #40, #266 ) ;
#92 = PERSON_AND_ORGANIZATION ( #33, #36 ) ;
#93 = VECTOR ( 'NONE', #105, 1000.000000000000000 ) ;
#94 = AXIS2_PLACEMENT_3D ( 'NONE', #191, #63, #265 ) ;
#95 = CALENDAR_DATE ( 2020, 22, 12 ) ;
#96 = VERTEX_POINT ( 'NONE', #127 ) ;
#97 = CARTESIAN_POINT ( 'NONE',  ( 12.69999999999999574, 12.69999999999999574, 12.69999999999999929 ) ) ;
#98 = DESIGN_CONTEXT ( 'detailed design', #62, 'design' ) ;
#99 = AXIS2_PLACEMENT_3D ( 'NONE', #114, #132, #80 ) ;
#100 = EDGE_CURVE ( 'NONE', #53, #96, #73, .T. ) ;
#101 = ORIENTED_EDGE ( 'NONE', *, *, #271, .F. ) ;
#102 = DIRECTION ( 'NONE',  ( -0.000000000000000000, -0.000000000000000000, -1.000000000000000000 ) ) ;
#103 = CC_DESIGN_PERSON_AND_ORGANIZATION_ASSIGNMENT ( #41, #115, ( #13 ) ) ;
#104 = VERTEX_POINT ( 'NONE', #48 ) ;
#105 = DIRECTION ( 'NONE',  ( -0.000000000000000000, -0.000000000000000000, -1.000000000000000000 ) ) ;
#106 = FACE_OUTER_BOUND ( 'NONE', #278, .T. ) ;
#107 = ORIENTED_EDGE ( 'NONE', *, *, #100, .F. ) ;
#108 = CARTESIAN_POINT ( 'NONE',  ( 12.69999999999999929, 12.69999999999999929, -12.69999999999999929 ) ) ;
#109 = CARTESIAN_POINT ( 'NONE',  ( -12.69999999999999751, -12.69999999999999929, 12.69999999999999929 ) ) ;
#110 = ORIENTED_EDGE ( 'NONE', *, *, #130, .F. ) ;
#111 = DIRECTION ( 'NONE',  ( -0.7071067811865475727, 0.7071067811865475727, 0.000000000000000000 ) ) ;
#112 = VECTOR ( 'NONE', #263, 1000.000000000000000 ) ;
#113 = EDGE_CURVE ( 'NONE', #233, #255, #152, .T. ) ;
#114 = CARTESIAN_POINT ( 'NONE',  ( -12.69999999999999574, -12.69999999999999396, 12.69999999999999929 ) ) ;
#115 = PERSON_AND_ORGANIZATION_ROLE ( 'creator' ) ;
#116 = VECTOR ( 'NONE', #25, 1000.000000000000114 ) ;
#117 = LOCAL_TIME ( 11, 15, 21.00000000000000000, #66 ) ;
#118 =( LENGTH_UNIT ( ) NAMED_UNIT ( * ) SI_UNIT ( .MILLI., .METRE. ) );
#119 = EDGE_CURVE ( 'NONE', #61, #96, #158, .T. ) ;
#120 = CALENDAR_DATE ( 2020, 22, 12 ) ;
#121 = EDGE_CURVE ( 'NONE', #26, #61, #254, .T. ) ;
#122 = ORIENTED_EDGE ( 'NONE', *, *, #15, .T. ) ;
#123 = EDGE_CURVE ( 'NONE', #233, #252, #229, .T. ) ;
#124 = VECTOR ( 'NONE', #179, 1000.000000000000000 ) ;
#125 = VECTOR ( 'NONE', #65, 1000.000000000000000 ) ;
#126 = CARTESIAN_POINT ( 'NONE',  ( 12.69999999999999574, 12.69999999999999574, 12.69999999999999929 ) ) ;
#127 = CARTESIAN_POINT ( 'NONE',  ( -12.70000000000000284, 12.70000000000000284, -12.69999999999999929 ) ) ;
#128 = LINE ( 'NONE', #1, #300 ) ;
#129 = VERTEX_POINT ( 'NONE', #260 ) ;
#130 = EDGE_CURVE ( 'NONE', #178, #129, #27, .T. ) ;
#131 = VECTOR ( 'NONE', #56, 1000.000000000000000 ) ;
#132 = DIRECTION ( 'NONE',  ( 1.000000000000000000, -2.220446049250312588E-16, 0.000000000000000000 ) ) ;
#133 = ORIENTED_EDGE ( 'NONE', *, *, #153, .F. ) ;
#134 = DIRECTION ( 'NONE',  ( -0.7071067811865475727, -0.7071067811865475727, 0.000000000000000000 ) ) ;
#135 = VERTEX_POINT ( 'NONE', #3 ) ;
#136 = PLANE ( 'NONE',  #142 ) ;
#137 = ORIENTED_EDGE ( 'NONE', *, *, #141, .T. ) ;
#138 = CARTESIAN_POINT ( 'NONE',  ( 12.69999999999999929, 12.69999999999999929, -12.69999999999999929 ) ) ;
#139 = CARTESIAN_POINT ( 'NONE',  ( 0.000000000000000000, 0.000000000000000000, 0.000000000000000000 ) ) ;
#140 = PLANE ( 'NONE',  #143 ) ;
#141 = EDGE_CURVE ( 'NONE', #135, #129, #303, .T. ) ;
#142 = AXIS2_PLACEMENT_3D ( 'NONE', #11, #185, #57 ) ;
#143 = AXIS2_PLACEMENT_3D ( 'NONE', #244, #37, #248 ) ;
#144 = APPLICATION_PROTOCOL_DEFINITION ( 'international standard', 'config_control_design', 1994, #62 ) ;
#145 = ADVANCED_FACE ( 'NONE', ( #211 ), #183, .F. ) ;
#146 = EDGE_CURVE ( 'NONE', #252, #178, #5, .T. ) ;
#147 = DATE_AND_TIME ( #95, #188 ) ;
#148 = PERSON_AND_ORGANIZATION_ROLE ( 'design_supplier' ) ;
#149 = VECTOR ( 'NONE', #70, 1000.000000000000000 ) ;
#150 = CARTESIAN_POINT ( 'NONE',  ( -12.69999999999999574, -12.69999999999999396, 12.69999999999999929 ) ) ;
#151 = APPROVAL_STATUS ( 'not_yet_approved' ) ;
#152 = LINE ( 'NONE', #318, #187 ) ;
#153 = EDGE_CURVE ( 'NONE', #53, #85, #128, .T. ) ;
#154 = PLANE ( 'NONE',  #2 ) ;
#155 = CARTESIAN_POINT ( 'NONE',  ( 0.000000000000000000, 0.000000000000000000, 12.69999999999999929 ) ) ;
#156 = ORIENTED_EDGE ( 'NONE', *, *, #130, .T. ) ;
#157 = ADVANCED_FACE ( 'NONE', ( #4 ), #164, .F. ) ;
#158 = LINE ( 'NONE', #308, #72 ) ;
#159 = LINE ( 'NONE', #257, #205 ) ;
#160 = CARTESIAN_POINT ( 'NONE',  ( -12.69999999999999751, -12.69999999999999929, 12.69999999999999929 ) ) ;
#161 = UNCERTAINTY_MEASURE_WITH_UNIT (LENGTH_MEASURE( 1.000000000000000082E-05 ), #118, 'distance_accuracy_value', 'NONE');
#162 = EDGE_LOOP ( 'NONE', ( #8, #289, #122, #262 ) ) ;
#163 = EDGE_CURVE ( 'NONE', #104, #61, #159, .T. ) ;
#164 = PLANE ( 'NONE',  #14 ) ;
#165 = EDGE_LOOP ( 'NONE', ( #281, #258, #110 ) ) ;
#166 = FACE_OUTER_BOUND ( 'NONE', #165, .T. ) ;
#167 = AXIS2_PLACEMENT_3D ( 'NONE', #321, #180, #280 ) ;
#168 = MANIFOLD_SOLID_BREP ( '¾µÏ', #58 ) ;
#169 =( NAMED_UNIT ( * ) SI_UNIT ( $, .STERADIAN. ) SOLID_ANGLE_UNIT ( ) );
#170 = ADVANCED_BREP_SHAPE_REPRESENTATION ( 'BK7-LPBSC-25.4-915', ( #51, #168, #90 ), #199 ) ;
#171 = SHAPE_DEFINITION_REPRESENTATION ( #47, #170 ) ;
#172 = APPROVAL_DATE_TIME ( #294, #283 ) ;
#173 = FACE_OUTER_BOUND ( 'NONE', #285, .T. ) ;
#174 = PERSON_AND_ORGANIZATION ( #33, #36 ) ;
#175 = LINE ( 'NONE', #317, #124 ) ;
#176 = APPROVAL_ROLE ( '' ) ;
#177 = CARTESIAN_POINT ( 'NONE',  ( -12.70000000000000284, 12.70000000000000284, 12.69999999999999929 ) ) ;
#178 = VERTEX_POINT ( 'NONE', #282 ) ;
#179 = DIRECTION ( 'NONE',  ( -0.000000000000000000, -0.000000000000000000, -1.000000000000000000 ) ) ;
#180 = DIRECTION ( 'NONE',  ( -1.000000000000000000, 0.000000000000000000, 0.000000000000000000 ) ) ;
#181 = EDGE_CURVE ( 'NONE', #255, #135, #60, .T. ) ;
#182 = ORIENTED_EDGE ( 'NONE', *, *, #24, .F. ) ;
#183 = PLANE ( 'NONE',  #22 ) ;
#184 = ORIENTED_EDGE ( 'NONE', *, *, #295, .T. ) ;
#185 = DIRECTION ( 'NONE',  ( 0.000000000000000000, 0.000000000000000000, 1.000000000000000000 ) ) ;
#186 = ORIENTED_EDGE ( 'NONE', *, *, #87, .F. ) ;
#187 = VECTOR ( 'NONE', #228, 1000.000000000000114 ) ;
#188 = LOCAL_TIME ( 11, 15, 21.00000000000000000, #316 ) ;
#189 = CARTESIAN_POINT ( 'NONE',  ( 12.69999999999999929, 12.69999999999999929, 12.69999999999999929 ) ) ;
#190 = ORIENTED_EDGE ( 'NONE', *, *, #181, .F. ) ;
#191 = CARTESIAN_POINT ( 'NONE',  ( 12.69999999999999929, 12.69999999999999929, 12.69999999999999929 ) ) ;
#192 = CARTESIAN_POINT ( 'NONE',  ( 12.69999999999999929, 12.69999999999999929, 12.69999999999999929 ) ) ;
#193 = CC_DESIGN_PERSON_AND_ORGANIZATION_ASSIGNMENT ( #242, #12, ( #64 ) ) ;
#194 = APPROVAL_ROLE ( '' ) ;
#195 = DATE_AND_TIME ( #203, #259 ) ;
#196 = CC_DESIGN_DATE_AND_TIME_ASSIGNMENT ( #147, #43, ( #13 ) ) ;
#197 = CARTESIAN_POINT ( 'NONE',  ( 0.000000000000000000, 0.000000000000000000, -12.69999999999999929 ) ) ;
#198 = DATE_TIME_ROLE ( 'classification_date' ) ;
#199 =( GEOMETRIC_REPRESENTATION_CONTEXT ( 3 ) GLOBAL_UNCERTAINTY_ASSIGNED_CONTEXT ( ( #161 ) ) GLOBAL_UNIT_ASSIGNED_CONTEXT ( ( #118, #221, #169 ) ) REPRESENTATION_CONTEXT ( 'NONE', 'WORKASPACE' ) );
#200 = APPLICATION_CONTEXT ( 'configuration controlled 3d designs of mechanical parts and assemblies' ) ;
#201 = COORDINATED_UNIVERSAL_TIME_OFFSET ( 8, 0, .AHEAD. ) ;
#202 = ORIENTED_EDGE ( 'NONE', *, *, #163, .T. ) ;
#203 = CALENDAR_DATE ( 2020, 22, 12 ) ;
#204 = FACE_OUTER_BOUND ( 'NONE', #302, .T. ) ;
#205 = VECTOR ( 'NONE', #134, 999.9999999999998863 ) ;
#206 = CARTESIAN_POINT ( 'NONE',  ( -12.69999999999999574, -12.69999999999999396, -12.69999999999999929 ) ) ;
#207 = ADVANCED_FACE ( 'NONE', ( #235 ), #28, .F. ) ;
#208 = ADVANCED_FACE ( 'NONE', ( #305 ), #232, .F. ) ;
#209 = APPROVAL_PERSON_ORGANIZATION ( #249, #291, #176 ) ;
#210 = DIRECTION ( 'NONE',  ( 1.000000000000000000, -2.220446049250312588E-16, 0.000000000000000000 ) ) ;
#211 = FACE_OUTER_BOUND ( 'NONE', #230, .T. ) ;
#212 = DIRECTION ( 'NONE',  ( 0.7071067811865475727, 0.7071067811865475727, 0.000000000000000000 ) ) ;
#213 = ORIENTED_EDGE ( 'NONE', *, *, #121, .T. ) ;
#214 = CARTESIAN_POINT ( 'NONE',  ( 12.69999999999999929, 12.69999999999999929, 12.69999999999999929 ) ) ;
#215 = DIRECTION ( 'NONE',  ( 2.220446049250312588E-16, -1.000000000000000000, 0.000000000000000000 ) ) ;
#216 = ORIENTED_EDGE ( 'NONE', *, *, #271, .T. ) ;
#217 = FACE_OUTER_BOUND ( 'NONE', #34, .T. ) ;
#218 = ADVANCED_FACE ( 'NONE', ( #106 ), #136, .T. ) ;
#219 = DIRECTION ( 'NONE',  ( 0.000000000000000000, 0.000000000000000000, 1.000000000000000000 ) ) ;
#220 = APPROVAL_PERSON_ORGANIZATION ( #293, #283, #194 ) ;
#221 =( NAMED_UNIT ( * ) PLANE_ANGLE_UNIT ( ) SI_UNIT ( $, .RADIAN. ) );
#222 = CALENDAR_DATE ( 2020, 22, 12 ) ;
#223 = DIRECTION ( 'NONE',  ( 1.000000000000000000, 0.000000000000000000, 0.000000000000000000 ) ) ;
#224 = LOCAL_TIME ( 11, 15, 21.00000000000000000, #16 ) ;
#225 = ORIENTED_EDGE ( 'NONE', *, *, #153, .T. ) ;
#226 = ORIENTED_EDGE ( 'NONE', *, *, #181, .T. ) ;
#227 = SECURITY_CLASSIFICATION ( '', '', #247 ) ;
#228 = DIRECTION ( 'NONE',  ( -0.7071067811865474617, -0.7071067811865474617, 0.000000000000000000 ) ) ;
#229 = LINE ( 'NONE', #214, #44 ) ;
#230 = EDGE_LOOP ( 'NONE', ( #156, #52, #190, #307 ) ) ;
#231 = DIRECTION ( 'NONE',  ( -2.220446049250312588E-16, 1.000000000000000000, 0.000000000000000000 ) ) ;
#232 = PLANE ( 'NONE',  #286 ) ;
#233 = VERTEX_POINT ( 'NONE', #189 ) ;
#234 = DIRECTION ( 'NONE',  ( 0.000000000000000000, -0.000000000000000000, 1.000000000000000000 ) ) ;
#235 = FACE_OUTER_BOUND ( 'NONE', #162, .T. ) ;
#236 = ORIENTED_EDGE ( 'NONE', *, *, #241, .F. ) ;
#237 = LINE ( 'NONE', #290, #287 ) ;
#238 = ORIENTED_EDGE ( 'NONE', *, *, #146, .T. ) ;
#239 = VECTOR ( 'NONE', #256, 1000.000000000000000 ) ;
#240 = DIRECTION ( 'NONE',  ( -0.000000000000000000, 1.000000000000000000, -0.000000000000000000 ) ) ;
#241 = EDGE_CURVE ( 'NONE', #85, #26, #237, .T. ) ;
#242 = PERSON_AND_ORGANIZATION ( #33, #36 ) ;
#243 = VECTOR ( 'NONE', #313, 1000.000000000000000 ) ;
#244 = CARTESIAN_POINT ( 'NONE',  ( 0.000000000000000000, 0.000000000000000000, -12.69999999999999929 ) ) ;
#245 = APPROVAL_DATE_TIME ( #195, #291 ) ;
#246 = CALENDAR_DATE ( 2020, 22, 12 ) ;
#247 = SECURITY_CLASSIFICATION_LEVEL ( 'unclassified' ) ;
#248 = DIRECTION ( 'NONE',  ( 1.000000000000000000, 0.000000000000000000, 0.000000000000000000 ) ) ;
#249 = PERSON_AND_ORGANIZATION ( #33, #36 ) ;
#250 = DIRECTION ( 'NONE',  ( -0.000000000000000000, 0.000000000000000000, 1.000000000000000000 ) ) ;
#251 = APPROVAL_ROLE ( '' ) ;
#252 = VERTEX_POINT ( 'NONE', #6 ) ;
#253 = DIRECTION ( 'NONE',  ( 1.000000000000000000, 0.000000000000000000, 0.000000000000000000 ) ) ;
#254 = LINE ( 'NONE', #284, #239 ) ;
#255 = VERTEX_POINT ( 'NONE', #109 ) ;
#256 = DIRECTION ( 'NONE',  ( 0.000000000000000000, 0.000000000000000000, -1.000000000000000000 ) ) ;
#257 = CARTESIAN_POINT ( 'NONE',  ( 12.69999999999999574, 12.69999999999999574, -12.69999999999999929 ) ) ;
#258 = ORIENTED_EDGE ( 'NONE', *, *, #295, .F. ) ;
#259 = LOCAL_TIME ( 11, 15, 21.00000000000000000, #19 ) ;
#260 = CARTESIAN_POINT ( 'NONE',  ( 12.69999999999999929, -12.69999999999999929, -12.69999999999999929 ) ) ;
#261 = DIRECTION ( 'NONE',  ( -0.7071067811865475727, -0.7071067811865475727, 0.000000000000000000 ) ) ;
#262 = ORIENTED_EDGE ( 'NONE', *, *, #100, .T. ) ;
#263 = DIRECTION ( 'NONE',  ( 1.000000000000000000, -2.220446049250312588E-16, 0.000000000000000000 ) ) ;
#264 = CC_DESIGN_DATE_AND_TIME_ASSIGNMENT ( #71, #198, ( #227 ) ) ;
#265 = DIRECTION ( 'NONE',  ( 0.7071067811865474617, 0.7071067811865474617, 0.000000000000000000 ) ) ;
#266 = APPROVAL ( #151, 'UNSPECIFIED' ) ;
#267 = PLANE ( 'NONE',  #320 ) ;
#268 = CLOSED_SHELL ( 'NONE', ( #273, #145, #7, #67, #306 ) ) ;
#269 = CC_DESIGN_PERSON_AND_ORGANIZATION_ASSIGNMENT ( #38, #69, ( #227 ) ) ;
#270 = PERSON_AND_ORGANIZATION ( #33, #36 ) ;
#271 = EDGE_CURVE ( 'NONE', #96, #104, #83, .T. ) ;
#272 = DIRECTION ( 'NONE',  ( -2.220446049250312588E-16, 1.000000000000000000, 0.000000000000000000 ) ) ;
#273 = ADVANCED_FACE ( 'NONE', ( #217 ), #86, .F. ) ;
#274 = CARTESIAN_POINT ( 'NONE',  ( -12.69999999999999574, -12.69999999999999396, 12.69999999999999929 ) ) ;
#275 = APPROVAL_PERSON_ORGANIZATION ( #174, #266, #251 ) ;
#276 = DIRECTION ( 'NONE',  ( 0.000000000000000000, 0.000000000000000000, -1.000000000000000000 ) ) ;
#277 = PLANE ( 'NONE',  #167 ) ;
#278 = EDGE_LOOP ( 'NONE', ( #236, #133, #45 ) ) ;
#279 = LOCAL_TIME ( 11, 15, 21.00000000000000000, #201 ) ;
#280 = DIRECTION ( 'NONE',  ( 0.000000000000000000, 0.000000000000000000, 1.000000000000000000 ) ) ;
#281 = ORIENTED_EDGE ( 'NONE', *, *, #146, .F. ) ;
#282 = CARTESIAN_POINT ( 'NONE',  ( -12.69999999999999751, -12.69999999999999929, -12.69999999999999929 ) ) ;
#283 = APPROVAL ( #314, 'UNSPECIFIED' ) ;
#284 = CARTESIAN_POINT ( 'NONE',  ( -12.69999999999999574, -12.69999999999999396, 12.69999999999999929 ) ) ;
#285 = EDGE_LOOP ( 'NONE', ( #202, #29, #216 ) ) ;
#286 = AXIS2_PLACEMENT_3D ( 'NONE', #309, #111, #212 ) ;
#287 = VECTOR ( 'NONE', #261, 999.9999999999998863 ) ;
#288 = CC_DESIGN_PERSON_AND_ORGANIZATION_ASSIGNMENT ( #270, #296, ( #39 ) ) ;
#289 = ORIENTED_EDGE ( 'NONE', *, *, #121, .F. ) ;
#290 = CARTESIAN_POINT ( 'NONE',  ( 12.69999999999999574, 12.69999999999999574, 12.69999999999999929 ) ) ;
#291 = APPROVAL ( #46, 'UNSPECIFIED' ) ;
#292 = MECHANICAL_CONTEXT ( 'NONE', #200, 'mechanical' ) ;
#293 = PERSON_AND_ORGANIZATION ( #33, #36 ) ;
#294 = DATE_AND_TIME ( #246, #117 ) ;
#295 = EDGE_CURVE ( 'NONE', #129, #252, #35, .T. ) ;
#296 = PERSON_AND_ORGANIZATION_ROLE ( 'creator' ) ;
#297 = ORIENTED_EDGE ( 'NONE', *, *, #241, .T. ) ;
#298 = PRODUCT_RELATED_PRODUCT_CATEGORY ( 'detail', '', ( #64 ) ) ;
#299 = DIRECTION ( 'NONE',  ( 0.000000000000000000, 0.000000000000000000, -1.000000000000000000 ) ) ;
#300 = VECTOR ( 'NONE', #210, 1000.000000000000000 ) ;
#301 = ORIENTED_EDGE ( 'NONE', *, *, #123, .F. ) ;
#302 = EDGE_LOOP ( 'NONE', ( #184, #301, #82, #137 ) ) ;
#303 = LINE ( 'NONE', #311, #93 ) ;
#304 = EDGE_CURVE ( 'NONE', #135, #233, #88, .T. ) ;
#305 = FACE_OUTER_BOUND ( 'NONE', #81, .T. ) ;
#306 = ADVANCED_FACE ( 'NONE', ( #166 ), #140, .F. ) ;
#307 = ORIENTED_EDGE ( 'NONE', *, *, #24, .T. ) ;
#308 = CARTESIAN_POINT ( 'NONE',  ( -12.69999999999999574, -12.69999999999999396, -12.69999999999999929 ) ) ;
#309 = CARTESIAN_POINT ( 'NONE',  ( 12.69999999999999574, 12.69999999999999574, 12.69999999999999929 ) ) ;
#310 = ORIENTED_EDGE ( 'NONE', *, *, #163, .F. ) ;
#311 = CARTESIAN_POINT ( 'NONE',  ( 12.69999999999999929, -12.69999999999999929, 12.69999999999999929 ) ) ;
#312 = CARTESIAN_POINT ( 'NONE',  ( -12.69999999999999751, -12.69999999999999929, 12.69999999999999929 ) ) ;
#313 = DIRECTION ( 'NONE',  ( 1.000000000000000000, 0.000000000000000000, 0.000000000000000000 ) ) ;
#314 = APPROVAL_STATUS ( 'not_yet_approved' ) ;
#315 = ADVANCED_FACE ( 'NONE', ( #173 ), #267, .F. ) ;
#316 = COORDINATED_UNIVERSAL_TIME_OFFSET ( 8, 0, .AHEAD. ) ;
#317 = CARTESIAN_POINT ( 'NONE',  ( -12.69999999999999751, -12.69999999999999929, 12.69999999999999929 ) ) ;
#318 = CARTESIAN_POINT ( 'NONE',  ( 12.69999999999999929, 12.69999999999999929, 12.69999999999999929 ) ) ;
#319 = VECTOR ( 'NONE', #299, 1000.000000000000000 ) ;
#320 = AXIS2_PLACEMENT_3D ( 'NONE', #197, #68, #272 ) ;
#321 = CARTESIAN_POINT ( 'NONE',  ( 12.69999999999999929, 12.69999999999999929, 12.69999999999999929 ) ) ;
ENDSEC;
END-ISO-10303-21;
